ISO-10303-21;
HEADER;
FILE_DESCRIPTION (( 'STEP AP203' ),
    '1' );
FILE_NAME ('BK7-LPBSC-12.7-1550.STEP',
    '2020-12-22T03:11:16',
    ( '' ),
    ( '' ),
    'SwSTEP 2.0',
    'SolidWorks 2020',
    '' );
FILE_SCHEMA (( 'CONFIG_CONTROL_DESIGN' ));
ENDSEC;

DATA;
#1 = CARTESIAN_POINT ( 'NONE',  ( 6.349999999999998757, 6.349999999999998757, -6.349999999999999645 ) ) ;
#2 = AXIS2_PLACEMENT_3D ( 'NONE', #305, #176, #173 ) ;
#3 = VERTEX_POINT ( 'NONE', #205 ) ;
#4 = PERSON ( 'UNSPECIFIED', 'UNSPECIFIED', 'UNSPECIFIED', ('UNSPECIFIED'), ('UNSPECIFIED'), ('UNSPECIFIED') ) ;
#5 = EDGE_CURVE ( 'NONE', #131, #11, #281, .T. ) ;
#6 = MANIFOLD_SOLID_BREP ( '¾µÏ', #74 ) ;
#7 = ORIENTED_EDGE ( 'NONE', *, *, #119, .T. ) ;
#8 = COORDINATED_UNIVERSAL_TIME_OFFSET ( 8, 0, .AHEAD. ) ;
#9 = DIRECTION ( 'NONE',  ( -0.000000000000000000, -0.000000000000000000, -1.000000000000000000 ) ) ;
#10 = SECURITY_CLASSIFICATION ( '', '', #166 ) ;
#11 = VERTEX_POINT ( 'NONE', #129 ) ;
#12 = APPROVAL ( #86, 'UNSPECIFIED' ) ;
#13 = ADVANCED_BREP_SHAPE_REPRESENTATION ( 'BK7-LPBSC-12.7-1550', ( #217, #6, #259 ), #193 ) ;
#14 = VECTOR ( 'NONE', #162, 1000.000000000000000 ) ;
#15 = CARTESIAN_POINT ( 'NONE',  ( -6.349999999999998757, -6.349999999999997868, 6.349999999999999645 ) ) ;
#16 = LINE ( 'NONE', #190, #252 ) ;
#17 = CARTESIAN_POINT ( 'NONE',  ( 6.349999999999996980, 6.349999999999996980, -6.349999999999999645 ) ) ;
#18 = APPROVAL_DATE_TIME ( #141, #68 ) ;
#19 = CARTESIAN_POINT ( 'NONE',  ( 6.349999999999998757, 6.349999999999998757, 6.349999999999999645 ) ) ;
#20 = PERSON_AND_ORGANIZATION ( #4, #187 ) ;
#21 = DIRECTION ( 'NONE',  ( -0.000000000000000000, -0.000000000000000000, -1.000000000000000000 ) ) ;
#22 = DIRECTION ( 'NONE',  ( -6.829619984160658046E-17, 1.000000000000000000, -0.000000000000000000 ) ) ;
#23 = PLANE ( 'NONE',  #127 ) ;
#24 = LINE ( 'NONE', #140, #135 ) ;
#25 = ORIENTED_EDGE ( 'NONE', *, *, #55, .F. ) ;
#26 = CARTESIAN_POINT ( 'NONE',  ( 6.349999999999996980, 6.349999999999996980, 6.349999999999999645 ) ) ;
#27 = APPROVAL_DATE_TIME ( #308, #185 ) ;
#28 = ORIENTED_EDGE ( 'NONE', *, *, #186, .F. ) ;
#29 = PERSON_AND_ORGANIZATION ( #4, #187 ) ;
#30 = ORIENTED_EDGE ( 'NONE', *, *, #306, .T. ) ;
#31 = VERTEX_POINT ( 'NONE', #100 ) ;
#32 = LINE ( 'NONE', #290, #45 ) ;
#33 = VECTOR ( 'NONE', #142, 1000.000000000000000 ) ;
#34 = DIRECTION ( 'NONE',  ( 1.000000000000000000, -2.220446049250312588E-16, 0.000000000000000000 ) ) ;
#35 = CARTESIAN_POINT ( 'NONE',  ( 6.349999999999996980, 6.349999999999996980, 6.349999999999999645 ) ) ;
#36 = COORDINATED_UNIVERSAL_TIME_OFFSET ( 8, 0, .AHEAD. ) ;
#37 = CARTESIAN_POINT ( 'NONE',  ( 6.349999999999998757, 6.349999999999998757, 6.349999999999999645 ) ) ;
#38 = CC_DESIGN_APPROVAL ( #185, ( #10 ) ) ;
#39 = CALENDAR_DATE ( 2020, 22, 12 ) ;
#40 = DIRECTION ( 'NONE',  ( 0.000000000000000000, 0.000000000000000000, 1.000000000000000000 ) ) ;
#41 = PLANE ( 'NONE',  #250 ) ;
#42 = EDGE_LOOP ( 'NONE', ( #49, #97, #298, #296 ) ) ;
#43 = CARTESIAN_POINT ( 'NONE',  ( -6.349999999999999645, -6.350000000000000533, 6.349999999999999645 ) ) ;
#44 = VECTOR ( 'NONE', #271, 1000.000000000000000 ) ;
#45 = VECTOR ( 'NONE', #241, 1000.000000000000000 ) ;
#46 = CARTESIAN_POINT ( 'NONE',  ( 6.349999999999996980, 6.349999999999996980, -6.349999999999999645 ) ) ;
#47 = CARTESIAN_POINT ( 'NONE',  ( 6.349999999999999645, -6.350000000000000533, -6.349999999999999645 ) ) ;
#48 = PRODUCT ( 'BK7-LPBSC-12.7-1550', 'BK7-LPBSC-12.7-1550', '', ( #66 ) ) ;
#49 = ORIENTED_EDGE ( 'NONE', *, *, #88, .T. ) ;
#50 = ADVANCED_FACE ( 'NONE', ( #301 ), #160, .T. ) ;
#51 = PERSON_AND_ORGANIZATION_ROLE ( 'design_supplier' ) ;
#52 = ORIENTED_EDGE ( 'NONE', *, *, #262, .F. ) ;
#53 = CLOSED_SHELL ( 'NONE', ( #265, #172, #58, #245, #321 ) ) ;
#54 = CC_DESIGN_DATE_AND_TIME_ASSIGNMENT ( #303, #258, ( #10 ) ) ;
#55 = EDGE_CURVE ( 'NONE', #31, #3, #104, .T. ) ;
#56 = DIRECTION ( 'NONE',  ( 0.000000000000000000, 0.000000000000000000, -1.000000000000000000 ) ) ;
#57 = DIRECTION ( 'NONE',  ( 1.000000000000000000, 0.000000000000000000, 0.000000000000000000 ) ) ;
#58 = ADVANCED_FACE ( 'NONE', ( #228 ), #102, .F. ) ;
#59 = FACE_OUTER_BOUND ( 'NONE', #229, .T. ) ;
#60 = PERSON_AND_ORGANIZATION ( #4, #187 ) ;
#61 = PLANE ( 'NONE',  #111 ) ;
#62 = CARTESIAN_POINT ( 'NONE',  ( -6.349999999999999645, -6.350000000000000533, 6.349999999999999645 ) ) ;
#63 = COORDINATED_UNIVERSAL_TIME_OFFSET ( 8, 0, .AHEAD. ) ;
#64 = CARTESIAN_POINT ( 'NONE',  ( 6.349999999999996980, 6.349999999999996980, 6.349999999999999645 ) ) ;
#65 = CARTESIAN_POINT ( 'NONE',  ( 6.349999999999998757, 6.349999999999998757, 6.349999999999999645 ) ) ;
#66 = MECHANICAL_CONTEXT ( 'NONE', #139, 'mechanical' ) ;
#67 = CARTESIAN_POINT ( 'NONE',  ( 6.349999999999996980, 6.349999999999996980, 6.349999999999999645 ) ) ;
#68 = APPROVAL ( #114, 'UNSPECIFIED' ) ;
#69 = DIRECTION ( 'NONE',  ( -1.000000000000000000, 2.903408047666378392E-16, 0.000000000000000000 ) ) ;
#70 = ORIENTED_EDGE ( 'NONE', *, *, #277, .T. ) ;
#71 = AXIS2_PLACEMENT_3D ( 'NONE', #317, #168, #57 ) ;
#72 = DIRECTION ( 'NONE',  ( -2.220446049250312588E-16, 1.000000000000000000, 0.000000000000000000 ) ) ;
#73 = PRODUCT_RELATED_PRODUCT_CATEGORY ( 'detail', '', ( #48 ) ) ;
#74 = CLOSED_SHELL ( 'NONE', ( #212, #272, #152, #50, #130 ) ) ;
#75 = DIRECTION ( 'NONE',  ( 0.000000000000000000, 0.000000000000000000, 1.000000000000000000 ) ) ;
#76 = PRODUCT_DEFINITION_SHAPE ( 'NONE', 'NONE',  #192 ) ;
#77 = ORIENTED_EDGE ( 'NONE', *, *, #203, .T. ) ;
#78 = VECTOR ( 'NONE', #123, 1000.000000000000000 ) ;
#79 = ORIENTED_EDGE ( 'NONE', *, *, #300, .T. ) ;
#80 = ORIENTED_EDGE ( 'NONE', *, *, #98, .T. ) ;
#81 = DIRECTION ( 'NONE',  ( -0.7071067811865474617, -0.7071067811865474617, 0.000000000000000000 ) ) ;
#82 = PLANE ( 'NONE',  #311 ) ;
#83 = LINE ( 'NONE', #256, #268 ) ;
#84 = DATE_AND_TIME ( #316, #247 ) ;
#85 = DIRECTION ( 'NONE',  ( 0.7071067811865475727, -0.7071067811865475727, 0.000000000000000000 ) ) ;
#86 = APPROVAL_STATUS ( 'not_yet_approved' ) ;
#87 = DIRECTION ( 'NONE',  ( -0.7071067811865475727, 0.7071067811865475727, 0.000000000000000000 ) ) ;
#88 = EDGE_CURVE ( 'NONE', #3, #159, #242, .T. ) ;
#89 = CC_DESIGN_APPROVAL ( #12, ( #238 ) ) ;
#90 = DIRECTION ( 'NONE',  ( -2.903408047666378392E-16, -1.000000000000000000, 0.000000000000000000 ) ) ;
#91 = VERTEX_POINT ( 'NONE', #26 ) ;
#92 = DIRECTION ( 'NONE',  ( 0.000000000000000000, 0.000000000000000000, 1.000000000000000000 ) ) ;
#93 = ORIENTED_EDGE ( 'NONE', *, *, #119, .F. ) ;
#94 = FACE_OUTER_BOUND ( 'NONE', #253, .T. ) ;
#95 = VECTOR ( 'NONE', #56, 1000.000000000000000 ) ;
#96 = LOCAL_TIME ( 11, 11, 16.00000000000000000, #8 ) ;
#97 = ORIENTED_EDGE ( 'NONE', *, *, #209, .F. ) ;
#98 = EDGE_CURVE ( 'NONE', #159, #103, #202, .T. ) ;
#99 = ORIENTED_EDGE ( 'NONE', *, *, #234, .F. ) ;
#100 = CARTESIAN_POINT ( 'NONE',  ( -6.349999999999999645, -6.350000000000000533, 6.349999999999999645 ) ) ;
#101 = AXIS2_PLACEMENT_3D ( 'NONE', #64, #87, #219 ) ;
#102 = PLANE ( 'NONE',  #2 ) ;
#103 = VERTEX_POINT ( 'NONE', #1 ) ;
#104 = LINE ( 'NONE', #276, #293 ) ;
#105 = EDGE_CURVE ( 'NONE', #11, #243, #220, .T. ) ;
#106 = LINE ( 'NONE', #35, #128 ) ;
#107 = CALENDAR_DATE ( 2020, 22, 12 ) ;
#108 = LINE ( 'NONE', #213, #33 ) ;
#109 = PERSON_AND_ORGANIZATION ( #4, #187 ) ;
#110 = LINE ( 'NONE', #320, #163 ) ;
#111 = AXIS2_PLACEMENT_3D ( 'NONE', #218, #167, #292 ) ;
#112 = CC_DESIGN_DATE_AND_TIME_ASSIGNMENT ( #84, #291, ( #192 ) ) ;
#113 = FACE_OUTER_BOUND ( 'NONE', #254, .T. ) ;
#114 = APPROVAL_STATUS ( 'not_yet_approved' ) ;
#115 = FACE_OUTER_BOUND ( 'NONE', #201, .T. ) ;
#116 = PERSON_AND_ORGANIZATION ( #4, #187 ) ;
#117 = VECTOR ( 'NONE', #22, 1000.000000000000000 ) ;
#118 = DIRECTION ( 'NONE',  ( -6.829619984160658046E-17, 1.000000000000000000, -0.000000000000000000 ) ) ;
#119 = EDGE_CURVE ( 'NONE', #149, #91, #223, .T. ) ;
#120 = LOCAL_TIME ( 11, 11, 16.00000000000000000, #248 ) ;
#121 = ORIENTED_EDGE ( 'NONE', *, *, #300, .F. ) ;
#122 = FACE_OUTER_BOUND ( 'NONE', #42, .T. ) ;
#123 = DIRECTION ( 'NONE',  ( 1.000000000000000000, 0.000000000000000000, 0.000000000000000000 ) ) ;
#124 = DESIGN_CONTEXT ( 'detailed design', #143, 'design' ) ;
#125 = VERTEX_POINT ( 'NONE', #225 ) ;
#126 = CARTESIAN_POINT ( 'NONE',  ( -6.349999999999998757, -6.349999999999997868, -6.349999999999999645 ) ) ;
#127 = AXIS2_PLACEMENT_3D ( 'NONE', #200, #90, #69 ) ;
#128 = VECTOR ( 'NONE', #138, 999.9999999999998863 ) ;
#129 = CARTESIAN_POINT ( 'NONE',  ( -6.349999999999998757, -6.349999999999997868, -6.349999999999999645 ) ) ;
#130 = ADVANCED_FACE ( 'NONE', ( #94 ), #41, .F. ) ;
#131 = VERTEX_POINT ( 'NONE', #175 ) ;
#132 = APPROVAL_PERSON_ORGANIZATION ( #60, #185, #299 ) ;
#133 = VERTEX_POINT ( 'NONE', #46 ) ;
#134 = CC_DESIGN_PERSON_AND_ORGANIZATION_ASSIGNMENT ( #157, #206, ( #10 ) ) ;
#135 = VECTOR ( 'NONE', #239, 1000.000000000000114 ) ;
#136 = ORIENTED_EDGE ( 'NONE', *, *, #186, .T. ) ;
#137 = DIRECTION ( 'NONE',  ( 0.7071067811865474617, 0.7071067811865474617, 0.000000000000000000 ) ) ;
#138 = DIRECTION ( 'NONE',  ( -0.7071067811865475727, -0.7071067811865475727, 0.000000000000000000 ) ) ;
#139 = APPLICATION_CONTEXT ( 'configuration controlled 3d designs of mechanical parts and assemblies' ) ;
#140 = CARTESIAN_POINT ( 'NONE',  ( 6.349999999999998757, 6.349999999999998757, -6.349999999999999645 ) ) ;
#141 = DATE_AND_TIME ( #39, #144 ) ;
#142 = DIRECTION ( 'NONE',  ( 0.000000000000000000, 0.000000000000000000, -1.000000000000000000 ) ) ;
#143 = APPLICATION_CONTEXT ( 'configuration controlled 3d designs of mechanical parts and assemblies' ) ;
#144 = LOCAL_TIME ( 11, 11, 16.00000000000000000, #36 ) ;
#145 =( NAMED_UNIT ( * ) SI_UNIT ( $, .STERADIAN. ) SOLID_ANGLE_UNIT ( ) );
#146 = CARTESIAN_POINT ( 'NONE',  ( 6.349999999999998757, 6.349999999999998757, 6.349999999999999645 ) ) ;
#147 = EDGE_CURVE ( 'NONE', #158, #125, #148, .T. ) ;
#148 = LINE ( 'NONE', #65, #169 ) ;
#149 = VERTEX_POINT ( 'NONE', #178 ) ;
#150 = CC_DESIGN_APPROVAL ( #68, ( #192 ) ) ;
#151 = CARTESIAN_POINT ( 'NONE',  ( 6.349999999999999645, -6.350000000000000533, 6.349999999999999645 ) ) ;
#152 = ADVANCED_FACE ( 'NONE', ( #266 ), #23, .F. ) ;
#153 = EDGE_LOOP ( 'NONE', ( #183, #93, #121 ) ) ;
#154 = CARTESIAN_POINT ( 'NONE',  ( 6.349999999999998757, 6.349999999999998757, -6.349999999999999645 ) ) ;
#155 = AXIS2_PLACEMENT_3D ( 'NONE', #37, #85, #137 ) ;
#156 = ORIENTED_EDGE ( 'NONE', *, *, #283, .F. ) ;
#157 = PERSON_AND_ORGANIZATION ( #4, #187 ) ;
#158 = VERTEX_POINT ( 'NONE', #151 ) ;
#159 = VERTEX_POINT ( 'NONE', #47 ) ;
#160 = PLANE ( 'NONE',  #257 ) ;
#161 = EDGE_LOOP ( 'NONE', ( #136, #25, #188, #309 ) ) ;
#162 = DIRECTION ( 'NONE',  ( 1.000000000000000000, 0.000000000000000000, 0.000000000000000000 ) ) ;
#163 = VECTOR ( 'NONE', #210, 1000.000000000000000 ) ;
#164 = APPROVAL_STATUS ( 'not_yet_approved' ) ;
#165 = DIRECTION ( 'NONE',  ( -2.220446049250312588E-16, 1.000000000000000000, 0.000000000000000000 ) ) ;
#166 = SECURITY_CLASSIFICATION_LEVEL ( 'unclassified' ) ;
#167 = DIRECTION ( 'NONE',  ( -0.000000000000000000, 0.000000000000000000, 1.000000000000000000 ) ) ;
#168 = DIRECTION ( 'NONE',  ( -0.000000000000000000, 0.000000000000000000, 1.000000000000000000 ) ) ;
#169 = VECTOR ( 'NONE', #118, 1000.000000000000000 ) ;
#170 = FACE_OUTER_BOUND ( 'NONE', #161, .T. ) ;
#171 = APPROVAL_PERSON_ORGANIZATION ( #20, #12, #198 ) ;
#172 = ADVANCED_FACE ( 'NONE', ( #122 ), #295, .F. ) ;
#173 = DIRECTION ( 'NONE',  ( 6.829619984160658046E-17, -1.000000000000000000, 0.000000000000000000 ) ) ;
#174 =( NAMED_UNIT ( * ) PLANE_ANGLE_UNIT ( ) SI_UNIT ( $, .RADIAN. ) );
#175 = CARTESIAN_POINT ( 'NONE',  ( -6.349999999999998757, -6.349999999999997868, 6.349999999999999645 ) ) ;
#176 = DIRECTION ( 'NONE',  ( -1.000000000000000000, -6.829619984160658046E-17, 0.000000000000000000 ) ) ;
#177 = ORIENTED_EDGE ( 'NONE', *, *, #88, .F. ) ;
#178 = CARTESIAN_POINT ( 'NONE',  ( -6.350000000000002309, 6.350000000000001421, 6.349999999999999645 ) ) ;
#179 = EDGE_LOOP ( 'NONE', ( #208, #227, #79, #284 ) ) ;
#180 = CALENDAR_DATE ( 2020, 22, 12 ) ;
#181 = ORIENTED_EDGE ( 'NONE', *, *, #314, .T. ) ;
#182 = APPROVAL_DATE_TIME ( #191, #12 ) ;
#183 = ORIENTED_EDGE ( 'NONE', *, *, #277, .F. ) ;
#184 = ORIENTED_EDGE ( 'NONE', *, *, #105, .T. ) ;
#185 = APPROVAL ( #164, 'UNSPECIFIED' ) ;
#186 = EDGE_CURVE ( 'NONE', #103, #3, #24, .T. ) ;
#187 = ORGANIZATION ( 'UNSPECIFIED', 'UNSPECIFIED', '' ) ;
#188 = ORIENTED_EDGE ( 'NONE', *, *, #314, .F. ) ;
#189 = SHAPE_DEFINITION_REPRESENTATION ( #76, #13 ) ;
#190 = CARTESIAN_POINT ( 'NONE',  ( -6.349999999999998757, -6.349999999999997868, 6.349999999999999645 ) ) ;
#191 = DATE_AND_TIME ( #180, #237 ) ;
#192 = PRODUCT_DEFINITION ( 'UNKNOWN', '', #238, #124 ) ;
#193 =( GEOMETRIC_REPRESENTATION_CONTEXT ( 3 ) GLOBAL_UNCERTAINTY_ASSIGNED_CONTEXT ( ( #319 ) ) GLOBAL_UNIT_ASSIGNED_CONTEXT ( ( #318, #174, #145 ) ) REPRESENTATION_CONTEXT ( 'NONE', 'WORKASPACE' ) );
#194 = LINE ( 'NONE', #19, #288 ) ;
#195 = APPLICATION_PROTOCOL_DEFINITION ( 'international standard', 'config_control_design', 1994, #143 ) ;
#196 = APPLICATION_PROTOCOL_DEFINITION ( 'international standard', 'config_control_design', 1994, #139 ) ;
#197 = FACE_OUTER_BOUND ( 'NONE', #179, .T. ) ;
#198 = APPROVAL_ROLE ( '' ) ;
#199 = DIRECTION ( 'NONE',  ( -0.7071067811865475727, -0.7071067811865475727, 0.000000000000000000 ) ) ;
#200 = CARTESIAN_POINT ( 'NONE',  ( 6.349999999999996980, 6.349999999999996980, 6.349999999999999645 ) ) ;
#201 = EDGE_LOOP ( 'NONE', ( #278, #204, #70, #222 ) ) ;
#202 = LINE ( 'NONE', #154, #117 ) ;
#203 = EDGE_CURVE ( 'NONE', #31, #158, #236, .T. ) ;
#204 = ORIENTED_EDGE ( 'NONE', *, *, #306, .F. ) ;
#205 = CARTESIAN_POINT ( 'NONE',  ( -6.349999999999999645, -6.350000000000000533, -6.349999999999999645 ) ) ;
#206 = PERSON_AND_ORGANIZATION_ROLE ( 'classification_officer' ) ;
#207 = CARTESIAN_POINT ( 'NONE',  ( -6.349999999999998757, -6.349999999999997868, 6.349999999999999645 ) ) ;
#208 = ORIENTED_EDGE ( 'NONE', *, *, #105, .F. ) ;
#209 = EDGE_CURVE ( 'NONE', #158, #159, #110, .T. ) ;
#210 = DIRECTION ( 'NONE',  ( -0.000000000000000000, -0.000000000000000000, -1.000000000000000000 ) ) ;
#211 = CC_DESIGN_PERSON_AND_ORGANIZATION_ASSIGNMENT ( #251, #51, ( #238 ) ) ;
#212 = ADVANCED_FACE ( 'NONE', ( #115 ), #315, .F. ) ;
#213 = CARTESIAN_POINT ( 'NONE',  ( 6.349999999999996980, 6.349999999999996980, 6.349999999999999645 ) ) ;
#214 = DIRECTION ( 'NONE',  ( 1.000000000000000000, 0.000000000000000000, 0.000000000000000000 ) ) ;
#215 = PLANE ( 'NONE',  #71 ) ;
#216 = PERSON_AND_ORGANIZATION_ROLE ( 'creator' ) ;
#217 = MANIFOLD_SOLID_BREP ( 'Í¹Ì¨-À', #53 ) ;
#218 = CARTESIAN_POINT ( 'NONE',  ( 0.000000000000000000, 0.000000000000000000, -6.349999999999999645 ) ) ;
#219 = DIRECTION ( 'NONE',  ( 0.7071067811865475727, 0.7071067811865475727, 0.000000000000000000 ) ) ;
#220 = LINE ( 'NONE', #126, #302 ) ;
#221 = DIRECTION ( 'NONE',  ( 0.000000000000000000, 1.000000000000000000, 0.000000000000000000 ) ) ;
#222 = ORIENTED_EDGE ( 'NONE', *, *, #5, .T. ) ;
#223 = LINE ( 'NONE', #67, #44 ) ;
#224 = ORIENTED_EDGE ( 'NONE', *, *, #234, .T. ) ;
#225 = CARTESIAN_POINT ( 'NONE',  ( 6.349999999999998757, 6.349999999999998757, 6.349999999999999645 ) ) ;
#226 = CC_DESIGN_SECURITY_CLASSIFICATION ( #10, ( #238 ) ) ;
#227 = ORIENTED_EDGE ( 'NONE', *, *, #5, .F. ) ;
#228 = FACE_OUTER_BOUND ( 'NONE', #274, .T. ) ;
#229 = EDGE_LOOP ( 'NONE', ( #181, #77, #255 ) ) ;
#230 = ORIENTED_EDGE ( 'NONE', *, *, #232, .T. ) ;
#231 = CARTESIAN_POINT ( 'NONE',  ( 0.000000000000000000, 0.000000000000000000, 6.349999999999999645 ) ) ;
#232 = EDGE_CURVE ( 'NONE', #133, #11, #260, .T. ) ;
#233 = DIRECTION ( 'NONE',  ( 1.000000000000000000, -2.903408047666378392E-16, 0.000000000000000000 ) ) ;
#234 = EDGE_CURVE ( 'NONE', #243, #133, #83, .T. ) ;
#235 = LINE ( 'NONE', #146, #304 ) ;
#236 = LINE ( 'NONE', #62, #14 ) ;
#237 = LOCAL_TIME ( 11, 11, 16.00000000000000000, #279 ) ;
#238 = PRODUCT_DEFINITION_FORMATION_WITH_SPECIFIED_SOURCE ( 'ANY', '', #48, .NOT_KNOWN. ) ;
#239 = DIRECTION ( 'NONE',  ( -0.7071067811865474617, -0.7071067811865474617, 0.000000000000000000 ) ) ;
#240 = PERSON_AND_ORGANIZATION ( #4, #187 ) ;
#241 = DIRECTION ( 'NONE',  ( 0.000000000000000000, 0.000000000000000000, -1.000000000000000000 ) ) ;
#242 = LINE ( 'NONE', #297, #78 ) ;
#243 = VERTEX_POINT ( 'NONE', #285 ) ;
#244 = DIRECTION ( 'NONE',  ( -2.220446049250312588E-16, 1.000000000000000000, 0.000000000000000000 ) ) ;
#245 = ADVANCED_FACE ( 'NONE', ( #59 ), #215, .T. ) ;
#246 = DIRECTION ( 'NONE',  ( 0.000000000000000000, -0.000000000000000000, 1.000000000000000000 ) ) ;
#247 = LOCAL_TIME ( 11, 11, 16.00000000000000000, #63 ) ;
#248 = COORDINATED_UNIVERSAL_TIME_OFFSET ( 8, 0, .AHEAD. ) ;
#249 = ORIENTED_EDGE ( 'NONE', *, *, #147, .F. ) ;
#250 = AXIS2_PLACEMENT_3D ( 'NONE', #269, #92, #72 ) ;
#251 = PERSON_AND_ORGANIZATION ( #4, #187 ) ;
#252 = VECTOR ( 'NONE', #165, 1000.000000000000000 ) ;
#253 = EDGE_LOOP ( 'NONE', ( #230, #184, #224 ) ) ;
#254 = EDGE_LOOP ( 'NONE', ( #28, #312, #177 ) ) ;
#255 = ORIENTED_EDGE ( 'NONE', *, *, #147, .T. ) ;
#256 = CARTESIAN_POINT ( 'NONE',  ( 6.349999999999996980, 6.349999999999996980, -6.349999999999999645 ) ) ;
#257 = AXIS2_PLACEMENT_3D ( 'NONE', #231, #75, #307 ) ;
#258 = DATE_TIME_ROLE ( 'classification_date' ) ;
#259 = AXIS2_PLACEMENT_3D ( 'NONE', #263, #294, #214 ) ;
#260 = LINE ( 'NONE', #17, #286 ) ;
#261 = PLANE ( 'NONE',  #155 ) ;
#262 = EDGE_CURVE ( 'NONE', #149, #243, #32, .T. ) ;
#263 = CARTESIAN_POINT ( 'NONE',  ( 0.000000000000000000, 0.000000000000000000, 0.000000000000000000 ) ) ;
#264 = PERSON_AND_ORGANIZATION_ROLE ( 'design_owner' ) ;
#265 = ADVANCED_FACE ( 'NONE', ( #170 ), #261, .F. ) ;
#266 = FACE_OUTER_BOUND ( 'NONE', #282, .T. ) ;
#267 = CC_DESIGN_PERSON_AND_ORGANIZATION_ASSIGNMENT ( #29, #287, ( #238 ) ) ;
#268 = VECTOR ( 'NONE', #233, 1000.000000000000000 ) ;
#269 = CARTESIAN_POINT ( 'NONE',  ( 0.000000000000000000, 0.000000000000000000, -6.349999999999999645 ) ) ;
#270 = APPROVAL_PERSON_ORGANIZATION ( #109, #68, #289 ) ;
#271 = DIRECTION ( 'NONE',  ( 1.000000000000000000, -2.903408047666378392E-16, 0.000000000000000000 ) ) ;
#272 = ADVANCED_FACE ( 'NONE', ( #197 ), #82, .F. ) ;
#273 = ORIENTED_EDGE ( 'NONE', *, *, #209, .T. ) ;
#274 = EDGE_LOOP ( 'NONE', ( #80, #156, #249, #273 ) ) ;
#275 = CALENDAR_DATE ( 2020, 22, 12 ) ;
#276 = CARTESIAN_POINT ( 'NONE',  ( -6.349999999999999645, -6.350000000000000533, 6.349999999999999645 ) ) ;
#277 = EDGE_CURVE ( 'NONE', #91, #131, #106, .T. ) ;
#278 = ORIENTED_EDGE ( 'NONE', *, *, #232, .F. ) ;
#279 = COORDINATED_UNIVERSAL_TIME_OFFSET ( 8, 0, .AHEAD. ) ;
#280 = CC_DESIGN_PERSON_AND_ORGANIZATION_ASSIGNMENT ( #116, #264, ( #48 ) ) ;
#281 = LINE ( 'NONE', #207, #95 ) ;
#282 = EDGE_LOOP ( 'NONE', ( #99, #52, #7, #30 ) ) ;
#283 = EDGE_CURVE ( 'NONE', #125, #103, #235, .T. ) ;
#284 = ORIENTED_EDGE ( 'NONE', *, *, #262, .T. ) ;
#285 = CARTESIAN_POINT ( 'NONE',  ( -6.350000000000002309, 6.350000000000001421, -6.349999999999999645 ) ) ;
#286 = VECTOR ( 'NONE', #199, 999.9999999999998863 ) ;
#287 = PERSON_AND_ORGANIZATION_ROLE ( 'creator' ) ;
#288 = VECTOR ( 'NONE', #81, 1000.000000000000114 ) ;
#289 = APPROVAL_ROLE ( '' ) ;
#290 = CARTESIAN_POINT ( 'NONE',  ( -6.350000000000002309, 6.350000000000001421, 6.349999999999999645 ) ) ;
#291 = DATE_TIME_ROLE ( 'creation_date' ) ;
#292 = DIRECTION ( 'NONE',  ( 1.000000000000000000, 0.000000000000000000, 0.000000000000000000 ) ) ;
#293 = VECTOR ( 'NONE', #9, 1000.000000000000000 ) ;
#294 = DIRECTION ( 'NONE',  ( 0.000000000000000000, 0.000000000000000000, 1.000000000000000000 ) ) ;
#295 = PLANE ( 'NONE',  #310 ) ;
#296 = ORIENTED_EDGE ( 'NONE', *, *, #55, .T. ) ;
#297 = CARTESIAN_POINT ( 'NONE',  ( -6.349999999999999645, -6.350000000000000533, -6.349999999999999645 ) ) ;
#298 = ORIENTED_EDGE ( 'NONE', *, *, #203, .F. ) ;
#299 = APPROVAL_ROLE ( '' ) ;
#300 = EDGE_CURVE ( 'NONE', #131, #149, #16, .T. ) ;
#301 = FACE_OUTER_BOUND ( 'NONE', #153, .T. ) ;
#302 = VECTOR ( 'NONE', #244, 1000.000000000000000 ) ;
#303 = DATE_AND_TIME ( #275, #96 ) ;
#304 = VECTOR ( 'NONE', #21, 1000.000000000000000 ) ;
#305 = CARTESIAN_POINT ( 'NONE',  ( 6.349999999999998757, 6.349999999999998757, 6.349999999999999645 ) ) ;
#306 = EDGE_CURVE ( 'NONE', #91, #133, #108, .T. ) ;
#307 = DIRECTION ( 'NONE',  ( -2.220446049250312588E-16, 1.000000000000000000, 0.000000000000000000 ) ) ;
#308 = DATE_AND_TIME ( #107, #120 ) ;
#309 = ORIENTED_EDGE ( 'NONE', *, *, #283, .T. ) ;
#310 = AXIS2_PLACEMENT_3D ( 'NONE', #43, #221, #246 ) ;
#311 = AXIS2_PLACEMENT_3D ( 'NONE', #15, #34, #40 ) ;
#312 = ORIENTED_EDGE ( 'NONE', *, *, #98, .F. ) ;
#313 = CC_DESIGN_PERSON_AND_ORGANIZATION_ASSIGNMENT ( #240, #216, ( #192 ) ) ;
#314 = EDGE_CURVE ( 'NONE', #125, #31, #194, .T. ) ;
#315 = PLANE ( 'NONE',  #101 ) ;
#316 = CALENDAR_DATE ( 2020, 22, 12 ) ;
#317 = CARTESIAN_POINT ( 'NONE',  ( 0.000000000000000000, 0.000000000000000000, 6.349999999999999645 ) ) ;
#318 =( LENGTH_UNIT ( ) NAMED_UNIT ( * ) SI_UNIT ( .MILLI., .METRE. ) );
#319 = UNCERTAINTY_MEASURE_WITH_UNIT (LENGTH_MEASURE( 1.000000000000000082E-05 ), #318, 'distance_accuracy_value', 'NONE');
#320 = CARTESIAN_POINT ( 'NONE',  ( 6.349999999999999645, -6.350000000000000533, 6.349999999999999645 ) ) ;
#321 = ADVANCED_FACE ( 'NONE', ( #113 ), #61, .F. ) ;
ENDSEC;
END-ISO-10303-21;
